  0
SECTION
  2
HEADER
  9
$ACADVER
  1
AC1015
  9
$ACADMAINTVER
 70
     6
  9
$DWGCODEPAGE
  3
ANSI_1254
  9
$INSBASE
 10
0.0
 20
0.0
 30
0.0
  9
$EXTMIN
 10
0.0
 20
0.0
 30
0.0
  9
$EXTMAX
 10
279.4
 20
215.9
 30
0.0
  9
$LIMMIN
 10
0.0
 20
0.0
  9
$LIMMAX
 10
279.4
 20
215.9
  9
$ORTHOMODE
 70
     0
  9
$REGENMODE
 70
     1
  9
$FILLMODE
 70
     1
  9
$QTEXTMODE
 70
     0
  9
$MIRRTEXT
 70
     1
  9
$LTSCALE
 40
1.0
  9
$ATTMODE
 70
     1
  9
$TEXTSIZE
 40
3.5
  9
$TRACEWID
 40
1.0
  9
$TEXTSTYLE
  7
Standard
  9
$CLAYER
  8
0
  9
$CELTYPE
  6
ByLayer
  9
$CECOLOR
 62
   256
  9
$CELTSCALE
 40
1.0
  9
$DISPSILH
 70
     0
  9
$DIMSCALE
 40
1.0
  9
$DIMASZ
 40
3.5
  9
$DIMEXO
 40
1.0
  9
$DIMDLI
 40
3.75
  9
$DIMRND
 40
0.0
  9
$DIMDLE
 40
0.0
  9
$DIMEXE
 40
1.0
  9
$DIMTP
 40
0.0
  9
$DIMTM
 40
0.0
  9
$DIMTXT
 40
3.5
  9
$DIMCEN
 40
2.5
  9
$DIMTSZ
 40
0.0
  9
$DIMTOL
 70
     0
  9
$DIMLIM
 70
     0
  9
$DIMTIH
 70
     1
  9
$DIMTOH
 70
     1
  9
$DIMSE1
 70
     0
  9
$DIMSE2
 70
     0
  9
$DIMTAD
 70
     1
  9
$DIMZIN
 70
     0
  9
$DIMBLK
  1

  9
$DIMASO
 70
     1
  9
$DIMSHO
 70
     1
  9
$DIMPOST
  1

  9
$DIMAPOST
  1

  9
$DIMALT
 70
     0
  9
$DIMALTD
 70
     3
  9
$DIMALTF
 40
0.0393700787
  9
$DIMLFAC
 40
1.0
  9
$DIMTOFL
 70
     1
  9
$DIMTVP
 40
0.0
  9
$DIMTIX
 70
     0
  9
$DIMSOXD
 70
     0
  9
$DIMSAH
 70
     0
  9
$DIMBLK1
  1

  9
$DIMBLK2
  1

  9
$DIMSTYLE
  2
ISO-25
  9
$DIMCLRD
 70
     0
  9
$DIMCLRE
 70
     0
  9
$DIMCLRT
 70
     0
  9
$DIMTFAC
 40
1.0
  9
$DIMGAP
 40
1.524
  9
$DIMJUST
 70
     0
  9
$DIMSD1
 70
     0
  9
$DIMSD2
 70
     0
  9
$DIMTOLJ
 70
     0
  9
$DIMTZIN
 70
     0
  9
$DIMALTZ
 70
     0
  9
$DIMALTTZ
 70
     0
  9
$DIMUPT
 70
     0
  9
$DIMDEC
 70
     2
  9
$DIMTDEC
 70
     2
  9
$DIMALTU
 70
     2
  9
$DIMALTTD
 70
     3
  9
$DIMTXSTY
  7
Standard
  9
$DIMAUNIT
 70
     0
  9
$DIMADEC
 70
     2
  9
$DIMALTRND
 40
0.0
  9
$DIMAZIN
 70
     0
  9
$DIMDSEP
 70
    44
  9
$DIMATFIT
 70
     3
  9
$DIMFRAC
 70
     0
  9
$DIMLDRBLK
  1

  9
$DIMLUNIT
 70
     2
  9
$DIMLWD
 70
    -2
  9
$DIMLWE
 70
    -2
  9
$DIMTMOVE
 70
     0
  9
$LUNITS
 70
     2
  9
$LUPREC
 70
     2
  9
$SKETCHINC
 40
1.0
  9
$FILLETRAD
 40
10.0
  9
$AUNITS
 70
     0
  9
$AUPREC
 70
     2
  9
$MENU
  1
.
  9
$ELEVATION
 40
0.0
  9
$PELEVATION
 40
0.0
  9
$THICKNESS
 40
0.0
  9
$LIMCHECK
 70
     0
  9
$CHAMFERA
 40
0.0
  9
$CHAMFERB
 40
0.0
  9
$CHAMFERC
 40
0.0
  9
$CHAMFERD
 40
0.0
  9
$SKPOLY
 70
     0
  9
$TDCREATE
 40
2458985.698903287
  9
$TDUCREATE
 40
2458985.573903287
  9
$TDUPDATE
 40
2458985.698903542
  9
$TDUUPDATE
 40
2458985.573903542
  9
$TDINDWG
 40
0.0000000116
  9
$TDUSRTIMER
 40
0.0000000116
  9
$USRTIMER
 70
     1
  9
$ANGBASE
 50
0.0
  9
$ANGDIR
 70
     0
  9
$PDMODE
 70
     0
  9
$PDSIZE
 40
-1.0
  9
$PLINEWID
 40
0.0
  9
$SPLFRAME
 70
     0
  9
$SPLINETYPE
 70
     6
  9
$SPLINESEGS
 70
     8
  9
$HANDSEED
  5
EF
  9
$SURFTAB1
 70
     6
  9
$SURFTAB2
 70
     6
  9
$SURFTYPE
 70
     6
  9
$SURFU
 70
     6
  9
$SURFV
 70
     6
  9
$UCSBASE
  2

  9
$UCSNAME
  2

  9
$UCSORG
 10
0.0
 20
0.0
 30
0.0
  9
$UCSXDIR
 10
1.0
 20
0.0
 30
0.0
  9
$UCSYDIR
 10
0.0
 20
1.0
 30
0.0
  9
$UCSORTHOREF
  2

  9
$UCSORTHOVIEW
 70
     0
  9
$UCSORGTOP
 10
0.0
 20
0.0
 30
0.0
  9
$UCSORGBOTTOM
 10
0.0
 20
0.0
 30
0.0
  9
$UCSORGLEFT
 10
0.0
 20
0.0
 30
0.0
  9
$UCSORGRIGHT
 10
0.0
 20
0.0
 30
0.0
  9
$UCSORGFRONT
 10
0.0
 20
0.0
 30
0.0
  9
$UCSORGBACK
 10
0.0
 20
0.0
 30
0.0
  9
$PUCSBASE
  2

  9
$PUCSNAME
  2

  9
$PUCSORG
 10
0.0
 20
0.0
 30
0.0
  9
$PUCSXDIR
 10
1.0
 20
0.0
 30
0.0
  9
$PUCSYDIR
 10
0.0
 20
1.0
 30
0.0
  9
$PUCSORTHOREF
  2

  9
$PUCSORTHOVIEW
 70
     0
  9
$PUCSORGTOP
 10
0.0
 20
0.0
 30
0.0
  9
$PUCSORGBOTTOM
 10
0.0
 20
0.0
 30
0.0
  9
$PUCSORGLEFT
 10
0.0
 20
0.0
 30
0.0
  9
$PUCSORGRIGHT
 10
0.0
 20
0.0
 30
0.0
  9
$PUCSORGFRONT
 10
0.0
 20
0.0
 30
0.0
  9
$PUCSORGBACK
 10
0.0
 20
0.0
 30
0.0
  9
$USERI1
 70
     0
  9
$USERI2
 70
     0
  9
$USERI3
 70
     0
  9
$USERI4
 70
     0
  9
$USERI5
 70
     0
  9
$USERR1
 40
0.0
  9
$USERR2
 40
0.0
  9
$USERR3
 40
0.0
  9
$USERR4
 40
0.0
  9
$USERR5
 40
0.0
  9
$WORLDVIEW
 70
     1
  9
$SHADEDGE
 70
     3
  9
$SHADEDIF
 70
    70
  9
$TILEMODE
 70
     1
  9
$MAXACTVP
 70
    64
  9
$PINSBASE
 10
0.0
 20
0.0
 30
0.0
  9
$PLIMCHECK
 70
     0
  9
$PEXTMIN
 10
1.0000000000E+20
 20
1.0000000000E+20
 30
1.0000000000E+20
  9
$PEXTMAX
 10
-1.0000000000E+20
 20
-1.0000000000E+20
 30
-1.0000000000E+20
  9
$PLIMMIN
 10
0.0
 20
0.0
  9
$PLIMMAX
 10
420.0
 20
297.0
  9
$UNITMODE
 70
     0
  9
$VISRETAIN
 70
     1
  9
$PLINEGEN
 70
     0
  9
$PSLTSCALE
 70
     1
  9
$TREEDEPTH
 70
  3020
  9
$CMLSTYLE
  2
Standard
  9
$CMLJUST
 70
     0
  9
$CMLSCALE
 40
20.0
  9
$PROXYGRAPHICS
 70
     1
  9
$MEASUREMENT
 70
     1
  9
$CELWEIGHT
370
    -1
  9
$ENDCAPS
280
     0
  9
$JOINSTYLE
280
     0
  9
$LWDISPLAY
290
     1
  9
$INSUNITS
 70
     4
  9
$HYPERLINKBASE
  1

  9
$STYLESHEET
  1

  9
$XEDIT
290
     1
  9
$CEPSNTYPE
380
     0
  9
$PSTYLEMODE
290
     1
  9
$FINGERPRINTGUID
  2
{26cd9b79-d2ed-48a6-a452-7bbf1cb8c031}
  9
$VERSIONGUID
  2
{FAEB1C32-E019-11D5-929B-00C0DF256EC4}
  9
$EXTNAMES
290
     1
  9
$PSVPSCALE
 40
0.0
  9
$OLESTARTUP
290
     0
  0
ENDSEC
  0
SECTION
  2
CLASSES
  0
CLASS
  1
ACDBDICTIONARYWDFLT
  2
AcDbDictionaryWithDefault
  3
ObjectDBX Classes
 90
        0
280
     0
281
     0
  0
CLASS
  1
VISUALSTYLE
  2
AcDbVisualStyle
  3
ObjectDBX Classes
 90
     4095
280
     0
281
     0
  0
CLASS
  1
MATERIAL
  2
AcDbMaterial
  3
ObjectDBX Classes
 90
     1153
280
     0
281
     0
  0
CLASS
  1
SCALE
  2
AcDbScale
  3
ObjectDBX Classes
 90
     1153
280
     0
281
     0
  0
CLASS
  1
TABLESTYLE
  2
AcDbTableStyle
  3
ObjectDBX Classes
 90
     4095
280
     0
281
     0
  0
CLASS
  1
MLEADERSTYLE
  2
AcDbMLeaderStyle
  3
ACDB_MLEADERSTYLE_CLASS
 90
     4095
280
     0
281
     0
  0
CLASS
  1
SUN
  2
AcDbSun
  3
SCENEOE
 90
     1153
280
     0
281
     0
  0
CLASS
  1
ACDBPLACEHOLDER
  2
AcDbPlaceHolder
  3
ObjectDBX Classes
 90
        0
280
     0
281
     0
  0
CLASS
  1
LAYOUT
  2
AcDbLayout
  3
ObjectDBX Classes
 90
        0
280
     0
281
     0
  0
ENDSEC
  0
SECTION
  2
TABLES
  0
TABLE
  2
VPORT
  5
8
330
0
100
AcDbSymbolTable
 70
     1
  0
VPORT
  5
29
330
8
100
AcDbSymbolTableRecord
100
AcDbViewportTableRecord
  2
*Active
 70
     0
 10
0.0
 20
0.0
 11
1.0
 21
1.0
 12
139.7
 22
107.95
 13
0.0
 23
0.0
 14
10.0
 24
10.0
 15
10.0
 25
10.0
 16
0.0
 26
0.0
 36
1.0
 17
0.0
 27
0.0
 37
0.0
 40
215.9
 41
1.2941176471
 42
50.0
 43
0.0
 44
0.0
 50
0.0
 51
0.0
 71
     0
 72
  2000
 73
     1
 74
     3
 75
     0
 76
     0
 77
     0
 78
     0
281
     0
 65
     1
110
0.0
120
0.0
130
0.0
111
1.0
121
0.0
131
0.0
112
0.0
122
1.0
132
0.0
 79
     0
146
0.0
  0
ENDTAB
  0
TABLE
  2
LTYPE
  5
5
330
0
100
AcDbSymbolTable
 70
     6
  0
LTYPE
  5
14
330
5
100
AcDbSymbolTableRecord
100
AcDbLinetypeTableRecord
  2
ByBlock
 70
     0
  3

 72
    65
 73
     0
 40
0.0
  0
LTYPE
  5
15
330
5
100
AcDbSymbolTableRecord
100
AcDbLinetypeTableRecord
  2
ByLayer
 70
     0
  3

 72
    65
 73
     0
 40
0.0
  0
LTYPE
  5
16
330
5
100
AcDbSymbolTableRecord
100
AcDbLinetypeTableRecord
  2
Continuous
 70
     0
  3
Solid line
 72
    65
 73
     0
 40
0.0
  0
LTYPE
  5
6E
330
5
100
AcDbSymbolTableRecord
100
AcDbLinetypeTableRecord
  2
HIDDEN
 70
     0
  3
Hidden __ __ __ __ __ __ __ __ __ __ __ __ __ __
 72
    65
 73
     2
 40
1.905
 49
1.27
 74
     0
 49
-0.635
 74
     0
  0
LTYPE
  5
6F
330
5
100
AcDbSymbolTableRecord
100
AcDbLinetypeTableRecord
  2
PHANTOM
 70
     0
  3
Phantom ______  __  __  ______  __  __  ______
 72
    65
 73
     6
 40
12.7
 49
6.35
 74
     0
 49
-1.27
 74
     0
 49
1.27
 74
     0
 49
-1.27
 74
     0
 49
1.27
 74
     0
 49
-1.27
 74
     0
  0
LTYPE
  5
70
330
5
100
AcDbSymbolTableRecord
100
AcDbLinetypeTableRecord
  2
CENTER
 70
     0
  3
Center ____ _ ____ _ ____ _ ____ _ ____ _ ____
 72
    65
 73
     4
 40
10.16
 49
6.35
 74
     0
 49
-1.27
 74
     0
 49
1.27
 74
     0
 49
-1.27
 74
     0
  0
LTYPE
  5
71
330
5
100
AcDbSymbolTableRecord
100
AcDbLinetypeTableRecord
  2
CENTERX2
 70
     0
  3
Center (2x) ________  __  ________  __  _____
 72
    65
 73
     4
 40
20.32
 49
12.7
 74
     0
 49
-2.54
 74
     0
 49
2.54
 74
     0
 49
-2.54
 74
     0
  0
LTYPE
  5
72
330
5
100
AcDbSymbolTableRecord
100
AcDbLinetypeTableRecord
  2
DOT2
 70
     0
  3
Dot (.5x) ........................................
 72
    65
 73
     2
 40
0.635
 49
0.0
 74
     0
 49
-0.635
 74
     0
  0
ENDTAB
  0
TABLE
  2
LAYER
  5
2
330
0
100
AcDbSymbolTable
 70
    17
  0
LAYER
  5
10
330
2
100
AcDbSymbolTableRecord
100
AcDbLayerTableRecord
  2
0
 70
     0
 62
     7
  6
Continuous
370
    -3
390
F
  0
LAYER
  5
73
330
2
100
AcDbSymbolTableRecord
100
AcDbLayerTableRecord
  2
FORMAT
 70
     0
 62
     7
  6
Continuous
370
    -3
390
F
  0
LAYER
  5
74
330
2
100
AcDbSymbolTableRecord
100
AcDbLayerTableRecord
  2
YARDIMCI_GEOMETRI
 70
     0
 62
    -6
  6
Continuous
290
     0
370
    -3
390
F
  0
LAYER
  5
75
330
2
100
AcDbSymbolTableRecord
100
AcDbLayerTableRecord
  2
SAYFA_CERCEVESI
 70
     0
 62
     7
  6
Continuous
370
    25
390
F
  0
LAYER
  5
76
330
2
100
AcDbSymbolTableRecord
100
AcDbLayerTableRecord
  2
ANTET
 70
     0
 62
     7
  6
Continuous
370
    -3
390
F
  0
LAYER
  5
77
330
2
100
AcDbSymbolTableRecord
100
AcDbLayerTableRecord
  2
OLCU
 70
     0
 62
   150
  6
Continuous
370
    -3
390
F
  0
LAYER
  5
78
330
2
100
AcDbSymbolTableRecord
100
AcDbLayerTableRecord
  2
METIN
 70
     0
 62
    96
  6
Continuous
370
    -3
390
F
  0
LAYER
  5
79
330
2
100
AcDbSymbolTableRecord
100
AcDbLayerTableRecord
  2
BALON
 70
     0
 62
     5
  6
Continuous
370
    -3
390
F
  0
LAYER
  5
7A
330
2
100
AcDbSymbolTableRecord
100
AcDbLayerTableRecord
  2
VURGU
 70
     0
 62
     7
  6
Continuous
370
    -3
390
F
  0
LAYER
  5
7B
330
2
100
AcDbSymbolTableRecord
100
AcDbLayerTableRecord
  2
SILIK
 70
     0
 62
     7
  6
Continuous
370
    -3
390
F
  0
LAYER
  5
7C
330
2
100
AcDbSymbolTableRecord
100
AcDbLayerTableRecord
  2
MODEL
 70
     0
 62
     7
  6
Continuous
370
    -3
390
F
  0
LAYER
  5
7D
330
2
100
AcDbSymbolTableRecord
100
AcDbLayerTableRecord
  2
DETAYLANDıRMA
 70
     0
 62
   190
  6
Continuous
370
    -3
390
F
  0
LAYER
  5
7E
330
2
100
AcDbSymbolTableRecord
100
AcDbLayerTableRecord
  2
TOLERANS
 70
     0
 62
   230
  6
Continuous
370
    -3
390
F
  0
LAYER
  5
7F
330
2
100
AcDbSymbolTableRecord
100
AcDbLayerTableRecord
  2
MERKEZ_CIZGILERI
 70
     0
 62
    30
  6
Continuous
370
    -3
390
F
  0
LAYER
  5
80
330
2
100
AcDbSymbolTableRecord
100
AcDbLayerTableRecord
  2
KESIT-DETAY_CIZGILERI
 70
     0
 62
     7
  6
Continuous
370
    -3
390
F
  0
LAYER
  5
81
330
2
100
AcDbSymbolTableRecord
100
AcDbLayerTableRecord
  2
\U+041E\U+0421\U+0415\U+0412\U+042B\U+0415
 70
     0
 62
     7
  6
Continuous
370
    -3
390
F
  0
LAYER
  5
82
330
2
100
AcDbSymbolTableRecord
100
AcDbLayerTableRecord
  2
\U+0412\U+041E\U+0414\U+042F\U+041D\U+042B\U+0415_\U+0417\U+041D\U+0410\U+041A\U+0418
 70
     0
 62
    11
  6
Continuous
370
    -3
390
F
  0
ENDTAB
  0
TABLE
  2
STYLE
  5
3
330
0
100
AcDbSymbolTable
 70
     1
  0
STYLE
  5
11
330
3
100
AcDbSymbolTableRecord
100
AcDbTextStyleTableRecord
  2
Standard
 70
     0
 40
0.0
 41
1.0
 50
0.0
 71
     0
 42
3.5
  3
txt
  4

  0
ENDTAB
  0
TABLE
  2
VIEW
  5
6
330
0
100
AcDbSymbolTable
 70
     0
  0
ENDTAB
  0
TABLE
  2
UCS
  5
7
330
0
100
AcDbSymbolTable
 70
     0
  0
ENDTAB
  0
TABLE
  2
APPID
  5
9
330
0
100
AcDbSymbolTable
 70
     1
  0
APPID
  5
12
330
9
100
AcDbSymbolTableRecord
100
AcDbRegAppTableRecord
  2
ACAD
 70
     0
  0
ENDTAB
  0
TABLE
  2
DIMSTYLE
  5
A
330
0
100
AcDbSymbolTable
 70
     1
100
AcDbDimStyleTable
  0
DIMSTYLE
105
27
330
A
100
AcDbSymbolTableRecord
100
AcDbDimStyleTableRecord
  2
ISO-25
 70
     0
 41
2.5
 42
0.625
 43
3.75
 44
1.25
 73
     0
 74
     0
 77
     1
 78
     8
140
2.5
141
2.5
143
0.0393700787
147
0.625
171
     3
172
     1
178
     0
271
     2
272
     2
274
     3
278
    44
283
     0
284
     8
340
11
  0
ENDTAB
  0
TABLE
  2
BLOCK_RECORD
  5
1
330
0
100
AcDbSymbolTable
 70
     2
  0
BLOCK_RECORD
  5
1F
330
1
100
AcDbSymbolTableRecord
100
AcDbBlockTableRecord
  2
*Model_Space
340
22
  0
BLOCK_RECORD
  5
1B
330
1
100
AcDbSymbolTableRecord
100
AcDbBlockTableRecord
  2
*Paper_Space
340
1E
  0
BLOCK_RECORD
  5
23
330
1
100
AcDbSymbolTableRecord
100
AcDbBlockTableRecord
  2
*Paper_Space0
340
26
  0
BLOCK_RECORD
  5
88
330
1
100
AcDbSymbolTableRecord
100
AcDbBlockTableRecord
  2
SW_CENTERMARKSYMBOL_0
340
0
102
{BLKREFS
331
93
102
}
  0
ENDTAB
  0
ENDSEC
  0
SECTION
  2
BLOCKS
  0
BLOCK
  5
20
330
1F
100
AcDbEntity
  8
0
100
AcDbBlockBegin
  2
*Model_Space
 70
     0
 10
0.0
 20
0.0
 30
0.0
  3
*Model_Space
  1

  0
ENDBLK
  5
21
330
1F
100
AcDbEntity
  8
0
100
AcDbBlockEnd
  0
BLOCK
  5
1C
330
1B
100
AcDbEntity
 67
     1
  8
0
100
AcDbBlockBegin
  2
*Paper_Space
 70
     0
 10
0.0
 20
0.0
 30
0.0
  3
*Paper_Space
  1

  0
ENDBLK
  5
1D
330
1B
100
AcDbEntity
 67
     1
  8
0
100
AcDbBlockEnd
  0
BLOCK
  5
24
330
23
100
AcDbEntity
  8
0
100
AcDbBlockBegin
  2
*Paper_Space0
 70
     0
 10
0.0
 20
0.0
 30
0.0
  3
*Paper_Space0
  1

  0
ENDBLK
  5
25
330
23
100
AcDbEntity
  8
0
100
AcDbBlockEnd
  0
BLOCK
  5
89
330
88
100
AcDbEntity
  8
0
100
AcDbBlockBegin
  2
SW_CENTERMARKSYMBOL_0
 70
     0
 10
0.0
 20
0.0
 30
0.0
  3
SW_CENTERMARKSYMBOL_0
  1

  0
LINE
  5
8B
330
88
100
AcDbEntity
  8
FORMAT
 62
     0
100
AcDbLine
 10
0.0
 20
0.0
 30
0.0
 11
0.0
 21
2.5
 31
0.0
  0
LINE
  5
8C
330
88
100
AcDbEntity
  8
FORMAT
 62
     0
100
AcDbLine
 10
0.0
 20
0.0
 30
0.0
 11
-2.5
 21
0.0
 31
0.0
  0
LINE
  5
8D
330
88
100
AcDbEntity
  8
FORMAT
 62
     0
100
AcDbLine
 10
0.0
 20
0.0
 30
0.0
 11
0.0
 21
-2.5
 31
0.0
  0
LINE
  5
8E
330
88
100
AcDbEntity
  8
FORMAT
 62
     0
100
AcDbLine
 10
0.0
 20
0.0
 30
0.0
 11
2.5
 21
0.0
 31
0.0
  0
LINE
  5
8F
330
88
100
AcDbEntity
  8
FORMAT
 62
     0
100
AcDbLine
 10
0.0
 20
5.0
 30
0.0
 11
0.0
 21
57.5
 31
0.0
  0
LINE
  5
90
330
88
100
AcDbEntity
  8
FORMAT
 62
     0
100
AcDbLine
 10
-5.0
 20
0.0
 30
0.0
 11
-57.5
 21
0.0
 31
0.0
  0
LINE
  5
91
330
88
100
AcDbEntity
  8
FORMAT
 62
     0
100
AcDbLine
 10
0.0
 20
-5.0
 30
0.0
 11
0.0
 21
-57.5
 31
0.0
  0
LINE
  5
92
330
88
100
AcDbEntity
  8
FORMAT
 62
     0
100
AcDbLine
 10
5.0
 20
0.0
 30
0.0
 11
57.5
 21
0.0
 31
0.0
  0
ENDBLK
  5
8A
330
88
100
AcDbEntity
  8
0
100
AcDbBlockEnd
  0
ENDSEC
  0
SECTION
  2
ENTITIES
  0
CIRCLE
  5
83
330
1F
100
AcDbEntity
  8
0
  6
Continuous
 62
     7
370
    25
100
AcDbCircle
 10
139.395004093
 20
107.5851680021
 30
0.0
 40
55.0
  0
CIRCLE
  5
84
330
1F
100
AcDbEntity
  8
0
  6
Continuous
 62
     7
370
    25
100
AcDbCircle
 10
139.395004093
 20
107.5851680021
 30
0.0
 40
45.00000000000001
  0
CIRCLE
  5
85
330
1F
100
AcDbEntity
  8
0
  6
Continuous
 62
     7
370
    25
100
AcDbCircle
 10
139.395004093
 20
107.5851680021
 30
0.0
 40
44.91003223490326
  0
CIRCLE
  5
86
330
1F
100
AcDbEntity
  8
0
  6
Continuous
 62
     7
370
    25
100
AcDbCircle
 10
139.395004093
 20
107.5851680021
 30
0.0
 40
36.88996776509677
  0
CIRCLE
  5
87
330
1F
100
AcDbEntity
  8
0
  6
Continuous
 62
     7
370
    25
100
AcDbCircle
 10
139.395004093
 20
107.5851680021
 30
0.0
 40
36.8
  0
INSERT
  5
93
330
1F
100
AcDbEntity
  8
FORMAT
 62
     7
100
AcDbBlockReference
  2
SW_CENTERMARKSYMBOL_0
 10
139.395004093
 20
107.5851680021
 30
0.0
  0
LINE
  5
94
330
1F
100
AcDbEntity
  8
0
  6
Continuous
 62
     7
370
    25
100
AcDbLine
 10
-82.8497972846
 20
162.5851677041
 30
0.0
 11
-164.6592379123
 21
162.5851677041
 31
0.0
  0
LINE
  5
95
330
1F
100
AcDbEntity
  8
0
  6
Continuous
 62
     7
370
    25
100
AcDbLine
 10
-164.6592379123
 20
52.5851683001
 30
0.0
 11
-82.8497972846
 21
52.5851683001
 31
0.0
  0
ARC
  5
96
330
1F
100
AcDbEntity
  8
0
  6
Continuous
 62
     7
370
    25
100
AcDbCircle
 10
-82.8497971923
 20
160.5851680021
 30
0.0
 40
2.0
100
AcDbArc
 50
79.1144729453
 51
90.0
  0
ARC
  5
97
330
1F
100
AcDbEntity
  8
0
  6
Continuous
 62
     7
370
    25
100
AcDbCircle
 10
-82.8497971923
 20
54.5851680021
 30
0.0
 40
2.0
100
AcDbArc
 50
270.0
 51
280.8855270547
  0
LINE
  5
98
330
1F
100
AcDbEntity
  8
0
  6
Continuous
 62
     7
370
    25
100
AcDbLine
 10
-82.4721031398
 20
52.6211546044
 30
0.0
 11
-30.8463689446
 21
62.5491799097
 31
0.0
  0
LINE
  5
99
330
1F
100
AcDbEntity
  8
0
  6
Continuous
 62
     7
370
    25
100
AcDbLine
 10
-30.8463689446
 20
152.6211560945
 30
0.0
 11
-82.4721031398
 21
162.5491813998
 31
0.0
  0
ARC
  5
9A
330
1F
100
AcDbEntity
  8
0
  6
Continuous
 62
     7
370
    25
100
AcDbCircle
 10
-30.4686735205
 20
154.5851680021
 30
0.0
 40
2.00000000000003
100
AcDbArc
 50
259.1144729453
 51
270.0
  0
ARC
  5
9B
330
1F
100
AcDbEntity
  8
0
  6
Continuous
 62
     7
370
    25
100
AcDbCircle
 10
-30.4686735205
 20
60.5851680021
 30
0.0
 40
2.000000000000016
100
AcDbArc
 50
90.0
 51
100.8855270547
  0
LINE
  5
9C
330
1F
100
AcDbEntity
  8
0
  6
Continuous
 62
     7
370
    25
100
AcDbLine
 10
48.3407616109
 20
152.5851697903
 30
0.0
 11
-30.4686729372
 21
152.5851697903
 31
0.0
  0
LINE
  5
9D
330
1F
100
AcDbEntity
  8
0
  6
Continuous
 62
     7
370
    25
100
AcDbLine
 10
-30.4686729372
 20
62.585166214
 30
0.0
 11
48.3407616109
 21
62.585166214
 31
0.0
  0
LINE
  5
9E
330
1F
100
AcDbEntity
  8
0
  6
Continuous
 62
     7
370
    25
100
AcDbLine
 10
-164.6592379123
 20
162.5851677041
 30
0.0
 11
-164.6592379123
 21
52.5851683001
 31
0.0
  0
LINE
  5
9F
330
1F
100
AcDbEntity
  8
0
  6
Continuous
 62
     7
370
    25
100
AcDbLine
 10
48.3407616109
 20
152.5851697903
 30
0.0
 11
48.3407616109
 21
62.585166214
 31
0.0
  0
LINE
  5
A0
330
1F
100
AcDbEntity
  8
0
  6
Continuous
 62
     1
370
    25
100
AcDbLine
 10
-82.8497972846
 20
162.5851677041
 30
0.0
 11
-82.8497972846
 21
52.5851683001
 31
0.0
  0
LINE
  5
A1
330
1F
100
AcDbEntity
  8
0
  6
Continuous
 62
     1
370
    25
100
AcDbLine
 10
-82.4721031398
 20
162.5491813998
 30
0.0
 11
-82.4721031398
 21
52.6211546044
 31
0.0
  0
LINE
  5
A2
330
1F
100
AcDbEntity
  8
0
  6
Continuous
 62
     1
370
    25
100
AcDbLine
 10
-30.8463689446
 20
152.6211560945
 30
0.0
 11
-30.8463689446
 21
62.5491799097
 31
0.0
  0
LINE
  5
A3
330
1F
100
AcDbEntity
  8
0
  6
Continuous
 62
     1
370
    25
100
AcDbLine
 10
-30.4686729372
 20
152.5851697903
 30
0.0
 11
-30.4686729372
 21
62.585166214
 31
0.0
  0
LINE
  5
A4
330
1F
100
AcDbEntity
  8
0
  6
Continuous
 62
     7
370
    25
100
AcDbLine
 10
377.5513586559
 20
52.5851683001
 30
0.0
 11
459.3607992836
 21
52.5851683001
 31
0.0
  0
LINE
  5
A5
330
1F
100
AcDbEntity
  8
0
  6
Continuous
 62
     7
370
    25
100
AcDbLine
 10
459.3607992836
 20
162.5851677041
 30
0.0
 11
377.5513586559
 21
162.5851677041
 31
0.0
  0
ARC
  5
A6
330
1F
100
AcDbEntity
  8
0
  6
Continuous
 62
     7
370
    25
100
AcDbCircle
 10
377.5513585637
 20
54.5851680021
 30
0.0
 40
2.0
100
AcDbArc
 50
259.1144729453
 51
270.0
  0
ARC
  5
A7
330
1F
100
AcDbEntity
  8
0
  6
Continuous
 62
     7
370
    25
100
AcDbCircle
 10
377.5513585637
 20
160.5851680021
 30
0.0
 40
2.0
100
AcDbArc
 50
90.0
 51
100.8855270547
  0
LINE
  5
A8
330
1F
100
AcDbEntity
  8
0
  6
Continuous
 62
     7
370
    25
100
AcDbLine
 10
377.1736645111
 20
162.5491813998
 30
0.0
 11
325.547930316
 21
152.6211560945
 31
0.0
  0
LINE
  5
A9
330
1F
100
AcDbEntity
  8
0
  6
Continuous
 62
     7
370
    25
100
AcDbLine
 10
325.547930316
 20
62.5491799097
 30
0.0
 11
377.1736645111
 21
52.6211546044
 31
0.0
  0
ARC
  5
AA
330
1F
100
AcDbEntity
  8
0
  6
Continuous
 62
     7
370
    25
100
AcDbCircle
 10
325.1702348919
 20
60.5851680021
 30
0.0
 40
2.000000000000014
100
AcDbArc
 50
79.1144729453
 51
90.0
  0
ARC
  5
AB
330
1F
100
AcDbEntity
  8
0
  6
Continuous
 62
     7
370
    25
100
AcDbCircle
 10
325.1702348919
 20
154.5851680021
 30
0.0
 40
2.000000000000028
100
AcDbArc
 50
270.0
 51
280.8855270547
  0
LINE
  5
AC
330
1F
100
AcDbEntity
  8
0
  6
Continuous
 62
     7
370
    25
100
AcDbLine
 10
246.3607997604
 20
62.585166214
 30
0.0
 11
325.1702343085
 21
62.585166214
 31
0.0
  0
LINE
  5
AD
330
1F
100
AcDbEntity
  8
0
  6
Continuous
 62
     7
370
    25
100
AcDbLine
 10
325.1702343085
 20
152.5851697903
 30
0.0
 11
246.3607997604
 21
152.5851697903
 31
0.0
  0
LINE
  5
AE
330
1F
100
AcDbEntity
  8
0
  6
Continuous
 62
     7
370
    25
100
AcDbLine
 10
459.3607992836
 20
107.5851680021
 30
0.0
 11
459.3607992836
 21
162.5851677041
 31
0.0
  0
LINE
  5
AF
330
1F
100
AcDbEntity
  8
0
  6
Continuous
 62
     7
370
    25
100
AcDbLine
 10
459.3607992836
 20
52.5851683001
 30
0.0
 11
459.3607992836
 21
107.5851680021
 31
0.0
  0
LINE
  5
B0
330
1F
100
AcDbEntity
  8
0
  6
Continuous
 62
     7
370
    25
100
AcDbLine
 10
246.3607997604
 20
107.5851680021
 30
0.0
 11
246.3607997604
 21
152.5851697903
 31
0.0
  0
LINE
  5
B1
330
1F
100
AcDbEntity
  8
0
  6
Continuous
 62
     7
370
    25
100
AcDbLine
 10
246.3607997604
 20
62.585166214
 30
0.0
 11
246.3607997604
 21
107.5851680021
 31
0.0
  0
LINE
  5
B2
330
1F
100
AcDbEntity
  8
0
  6
Continuous
 62
     1
370
    25
100
AcDbLine
 10
377.5513586559
 20
107.5851680021
 30
0.0
 11
377.5513586559
 21
162.5851677041
 31
0.0
  0
LINE
  5
B3
330
1F
100
AcDbEntity
  8
0
  6
Continuous
 62
     1
370
    25
100
AcDbLine
 10
377.5513586559
 20
52.5851683001
 30
0.0
 11
377.5513586559
 21
107.5851680021
 31
0.0
  0
LINE
  5
B4
330
1F
100
AcDbEntity
  8
0
  6
Continuous
 62
     1
370
    25
100
AcDbLine
 10
377.1736645111
 20
107.5851680021
 30
0.0
 11
377.1736645111
 21
162.5491813998
 31
0.0
  0
LINE
  5
B5
330
1F
100
AcDbEntity
  8
0
  6
Continuous
 62
     1
370
    25
100
AcDbLine
 10
377.1736645111
 20
52.6211546044
 30
0.0
 11
377.1736645111
 21
107.5851680021
 31
0.0
  0
LINE
  5
B6
330
1F
100
AcDbEntity
  8
0
  6
Continuous
 62
     1
370
    25
100
AcDbLine
 10
325.547930316
 20
107.5851680021
 30
0.0
 11
325.547930316
 21
152.6211560945
 31
0.0
  0
LINE
  5
B7
330
1F
100
AcDbEntity
  8
0
  6
Continuous
 62
     1
370
    25
100
AcDbLine
 10
325.547930316
 20
62.5491799097
 30
0.0
 11
325.547930316
 21
107.5851680021
 31
0.0
  0
LINE
  5
B8
330
1F
100
AcDbEntity
  8
0
  6
Continuous
 62
     1
370
    25
100
AcDbLine
 10
325.1702343085
 20
107.5851680021
 30
0.0
 11
325.1702343085
 21
152.5851697903
 31
0.0
  0
LINE
  5
B9
330
1F
100
AcDbEntity
  8
0
  6
Continuous
 62
     1
370
    25
100
AcDbLine
 10
325.1702343085
 20
62.585166214
 30
0.0
 11
325.1702343085
 21
107.5851680021
 31
0.0
  0
LINE
  5
BA
330
1F
100
AcDbEntity
  8
0
  6
Continuous
 62
     7
370
    25
100
AcDbLine
 10
194.395003795
 20
332.4853952663
 30
0.0
 11
194.395003795
 21
414.294835894
 31
0.0
  0
LINE
  5
BB
330
1F
100
AcDbEntity
  8
0
  6
Continuous
 62
     7
370
    25
100
AcDbLine
 10
84.3950043911
 20
414.294835894
 30
0.0
 11
84.3950043911
 21
332.4853952663
 31
0.0
  0
ARC
  5
BC
330
1F
100
AcDbEntity
  8
0
  6
Continuous
 62
     7
370
    25
100
AcDbCircle
 10
192.395004093
 20
332.4853951741
 30
0.0
 40
2.0
100
AcDbArc
 50
349.1144729453
 51
360.0
  0
ARC
  5
BD
330
1F
100
AcDbEntity
  8
0
  6
Continuous
 62
     7
370
    25
100
AcDbCircle
 10
86.395004093
 20
332.4853951741
 30
0.0
 40
2.0
100
AcDbArc
 50
180.0
 51
190.8855270547
  0
LINE
  5
BE
330
1F
100
AcDbEntity
  8
0
  6
Continuous
 62
     7
370
    25
100
AcDbLine
 10
84.4309906954
 20
332.1077011215
 30
0.0
 11
94.3590160006
 21
280.4819669264
 31
0.0
  0
LINE
  5
BF
330
1F
100
AcDbEntity
  8
0
  6
Continuous
 62
     7
370
    25
100
AcDbLine
 10
184.4309921855
 20
280.4819669264
 30
0.0
 11
194.3590174907
 21
332.1077011215
 31
0.0
  0
ARC
  5
C0
330
1F
100
AcDbEntity
  8
0
  6
Continuous
 62
     7
370
    25
100
AcDbCircle
 10
186.395004093
 20
280.1042715023
 30
0.0
 40
2.0
100
AcDbArc
 50
169.1144729453
 51
180.0
  0
ARC
  5
C1
330
1F
100
AcDbEntity
  8
0
  6
Continuous
 62
     7
370
    25
100
AcDbCircle
 10
92.395004093
 20
280.1042715023
 30
0.0
 40
2.000000000000014
100
AcDbArc
 50
0.0
 51
10.8855270547
  0
LINE
  5
C2
330
1F
100
AcDbEntity
  8
0
  6
Continuous
 62
     7
370
    25
100
AcDbLine
 10
184.3950058812
 20
201.2948363709
 30
0.0
 11
184.3950058812
 21
280.1042709189
 31
0.0
  0
LINE
  5
C3
330
1F
100
AcDbEntity
  8
0
  6
Continuous
 62
     7
370
    25
100
AcDbLine
 10
94.3950023049
 20
280.1042709189
 30
0.0
 11
94.3950023049
 21
201.2948363709
 31
0.0
  0
LINE
  5
C4
330
1F
100
AcDbEntity
  8
0
  6
Continuous
 62
     7
370
    25
100
AcDbLine
 10
194.395003795
 20
414.294835894
 30
0.0
 11
84.3950043911
 21
414.294835894
 31
0.0
  0
LINE
  5
C5
330
1F
100
AcDbEntity
  8
0
  6
Continuous
 62
     7
370
    25
100
AcDbLine
 10
184.3950058812
 20
201.2948363709
 30
0.0
 11
94.3950023049
 21
201.2948363709
 31
0.0
  0
LINE
  5
C6
330
1F
100
AcDbEntity
  8
0
  6
Continuous
 62
     1
370
    25
100
AcDbLine
 10
194.395003795
 20
332.4853952663
 30
0.0
 11
84.3950043911
 21
332.4853952663
 31
0.0
  0
LINE
  5
C7
330
1F
100
AcDbEntity
  8
0
  6
Continuous
 62
     1
370
    25
100
AcDbLine
 10
194.3590174907
 20
332.1077011215
 30
0.0
 11
84.4309906954
 21
332.1077011215
 31
0.0
  0
LINE
  5
C8
330
1F
100
AcDbEntity
  8
0
  6
Continuous
 62
     1
370
    25
100
AcDbLine
 10
184.4309921855
 20
280.4819669264
 30
0.0
 11
94.3590160006
 21
280.4819669264
 31
0.0
  0
LINE
  5
C9
330
1F
100
AcDbEntity
  8
0
  6
Continuous
 62
     1
370
    25
100
AcDbLine
 10
184.3950058812
 20
280.1042709189
 30
0.0
 11
94.3950023049
 21
280.1042709189
 31
0.0
  0
LINE
  5
CA
330
1F
100
AcDbEntity
  8
0
  6
Continuous
 62
     7
370
    25
100
AcDbLine
 10
84.3950043911
 20
-124.7078669715
 30
0.0
 11
84.3950043911
 21
-206.5173075992
 31
0.0
  0
LINE
  5
CB
330
1F
100
AcDbEntity
  8
0
  6
Continuous
 62
     7
370
    25
100
AcDbLine
 10
194.395003795
 20
-206.5173075992
 30
0.0
 11
194.395003795
 21
-124.7078669715
 31
0.0
  0
ARC
  5
CC
330
1F
100
AcDbEntity
  8
0
  6
Continuous
 62
     7
370
    25
100
AcDbCircle
 10
86.395004093
 20
-124.7078668793
 30
0.0
 40
2.0
100
AcDbArc
 50
169.1144729453
 51
180.0
  0
ARC
  5
CD
330
1F
100
AcDbEntity
  8
0
  6
Continuous
 62
     7
370
    25
100
AcDbCircle
 10
192.395004093
 20
-124.7078668793
 30
0.0
 40
2.0
100
AcDbArc
 50
0.0
 51
10.8855270547
  0
LINE
  5
CE
330
1F
100
AcDbEntity
  8
0
  6
Continuous
 62
     7
370
    25
100
AcDbLine
 10
194.3590174907
 20
-124.3301728267
 30
0.0
 11
184.4309921855
 21
-72.7044386316
 31
0.0
  0
LINE
  5
CF
330
1F
100
AcDbEntity
  8
0
  6
Continuous
 62
     7
370
    25
100
AcDbLine
 10
94.3590160006
 20
-72.7044386316
 30
0.0
 11
84.4309906954
 21
-124.3301728267
 31
0.0
  0
ARC
  5
D0
330
1F
100
AcDbEntity
  8
0
  6
Continuous
 62
     7
370
    25
100
AcDbCircle
 10
92.395004093
 20
-72.3267432075
 30
0.0
 40
2.000000000000017
100
AcDbArc
 50
349.1144729453
 51
0.0
  0
ARC
  5
D1
330
1F
100
AcDbEntity
  8
0
  6
Continuous
 62
     7
370
    25
100
AcDbCircle
 10
186.395004093
 20
-72.3267432075
 30
0.0
 40
2.000000000000003
100
AcDbArc
 50
180.0
 51
190.8855270547
  0
LINE
  5
D2
330
1F
100
AcDbEntity
  8
0
  6
Continuous
 62
     7
370
    25
100
AcDbLine
 10
94.3950023049
 20
6.482691924
 30
0.0
 11
94.3950023049
 21
-72.3267426241
 31
0.0
  0
LINE
  5
D3
330
1F
100
AcDbEntity
  8
0
  6
Continuous
 62
     7
370
    25
100
AcDbLine
 10
184.3950058812
 20
-72.3267426241
 30
0.0
 11
184.3950058812
 21
6.482691924
 31
0.0
  0
LINE
  5
D4
330
1F
100
AcDbEntity
  8
0
  6
Continuous
 62
     7
370
    25
100
AcDbLine
 10
84.3950043911
 20
-206.5173075992
 30
0.0
 11
194.395003795
 21
-206.5173075992
 31
0.0
  0
LINE
  5
D5
330
1F
100
AcDbEntity
  8
0
  6
Continuous
 62
     7
370
    25
100
AcDbLine
 10
94.3950023049
 20
6.482691924
 30
0.0
 11
184.3950058812
 21
6.482691924
 31
0.0
  0
LINE
  5
D6
330
1F
100
AcDbEntity
  8
0
  6
Continuous
 62
     1
370
    25
100
AcDbLine
 10
84.3950043911
 20
-124.7078669715
 30
0.0
 11
194.395003795
 21
-124.7078669715
 31
0.0
  0
LINE
  5
D7
330
1F
100
AcDbEntity
  8
0
  6
Continuous
 62
     1
370
    25
100
AcDbLine
 10
84.4309906954
 20
-124.3301728267
 30
0.0
 11
194.3590174907
 21
-124.3301728267
 31
0.0
  0
LINE
  5
D8
330
1F
100
AcDbEntity
  8
0
  6
Continuous
 62
     1
370
    25
100
AcDbLine
 10
94.3590160006
 20
-72.7044386316
 30
0.0
 11
184.4309921855
 21
-72.7044386316
 31
0.0
  0
LINE
  5
D9
330
1F
100
AcDbEntity
  8
0
  6
Continuous
 62
     1
370
    25
100
AcDbLine
 10
94.3950023049
 20
-72.3267426241
 30
0.0
 11
184.3950058812
 21
-72.3267426241
 31
0.0
  0
LINE
  5
DA
330
1F
100
AcDbEntity
  8
0
  6
Continuous
 62
     7
370
    25
100
AcDbLine
 10
369.005456175
 20
-24.8552664063
 30
0.0
 11
311.1574459421
 21
8.5396790697
 31
0.0
  0
LINE
  5
DB
330
1F
100
AcDbEntity
  8
0
  6
Continuous
 62
     7
370
    25
100
AcDbLine
 10
256.16191466
 20
-86.7256990647
 30
0.0
 11
314.0099248929
 21
-120.1206445407
 31
0.0
  0
SPLINE
  5
DC
330
1F
100
AcDbEntity
  8
0
  6
Continuous
 62
     7
370
    25
100
AcDbSpline
210
0.0
220
0.0
230
1.0
 70
     8
 71
     3
 72
    11
 73
     7
 74
     0
 42
0.000000001
 43
0.00000001
 40
0.0
 40
0.0
 40
0.0
 40
0.0
 40
0.0956456588769498
 40
0.4682291320832526
 40
0.8393795726424712
 40
1.0
 40
1.0
 40
1.0
 40
1.0
 10
372.9962635522319
 20
-27.91141670058781
 30
0.0
 10
372.8873026411439
 20
-27.79817496923506
 30
0.0
 10
372.3538892753019
 20
-27.24380503536151
 30
0.0
 10
371.2964681792441
 20
-26.38520518837573
 30
0.0
 10
370.1226542334848
 20
-25.51199801248274
 30
0.0
 10
369.3765794806764
 20
-25.09070713450134
 30
0.0
 10
369.1512289530963
 20
-24.96345698797056
 30
0.0
  0
SPLINE
  5
DD
330
1F
100
AcDbEntity
  8
0
  6
Continuous
 62
     7
370
    25
100
AcDbSpline
210
0.0
220
0.0
230
1.0
 70
     8
 71
     3
 72
    10
 73
     6
 74
     0
 42
0.000000001
 43
0.00000001
 40
0.0
 40
0.0
 40
0.0
 40
0.0
 40
0.3982908591350593
 40
0.806092558184811
 40
1.0
 40
1.0
 40
1.0
 40
1.0
 10
314.0891069674995
 20
-120.1639600998379
 30
0.0
 10
314.6021644229025
 20
-120.4388898422648
 30
0.0
 10
315.6405307003004
 20
-120.9953144106701
 30
0.0
 10
316.9977212412212
 20
-121.5589614196642
 30
0.0
 10
317.8535198585075
 20
-121.809516458382
 30
0.0
 10
318.1293104511989
 20
-121.8902605975218
 30
0.0
  0
LINE
  5
DE
330
1F
100
AcDbEntity
  8
0
  6
Continuous
 62
     7
370
    25
100
AcDbLine
 10
318.2879472377
 20
-121.9591327486
 30
0.0
 11
359.0352253501
 21
-134.1249489885
 31
0.0
  0
LINE
  5
DF
330
1F
100
AcDbEntity
  8
0
  6
Continuous
 62
     7
370
    25
100
AcDbLine
 10
403.6491910051
 20
-56.8429182355
 30
0.0
 11
372.7369076516
 21
-27.6405495899
 31
0.0
  0
LINE
  5
E0
330
1F
100
AcDbEntity
  8
0
  6
Continuous
 62
     7
370
    25
100
AcDbLine
 10
456.7715964842
 20
-87.0682745339
 30
0.0
 11
402.4473512293
 21
-55.7075552799
 31
0.0
  0
LINE
  5
E1
330
1F
100
AcDbEntity
  8
0
  6
Continuous
 62
     7
370
    25
100
AcDbLine
 10
357.4510069741
 20
-133.6519536359
 30
0.0
 11
411.775252229
 21
-165.0126728899
 31
0.0
  0
LWPOLYLINE
  5
E2
330
1F
100
AcDbEntity
  8
0
  6
Continuous
 62
     7
370
    25
100
AcDbPolyline
 90
      110
 70
   128
 43
0.0
 10
244.7688075465
 20
-61.5442329509
 10
244.8334028602
 20
-58.9196034353
 10
245.0269754329
 20
-56.2291116844
 10
245.3488825251
 20
-53.4816955486
 10
245.7980546606
 20
-50.6864806723
 10
246.3729982604
 20
-47.8527540684
 10
247.0718035454
 20
-44.9899308487
 10
247.892152439
 20
-42.1075158214
 10
248.8313159327
 20
-39.215087521
 10
249.8861751598
 20
-36.322254864
 10
251.0532292976
 20
-33.438623689
 10
252.3285955677
 20
-30.5737785061
 10
253.7080434802
 20
-27.7372307882
 10
255.186984297
 20
-24.9384083235
 10
256.7605105444
 20
-22.1866050291
 10
258.4233933789
 20
-19.4909626992
 10
260.1701089294
 20
-16.8604375474
 10
261.9948541015
 20
-14.3037667478
 10
263.8915676516
 20
-11.8294410602
 10
265.8539486259
 20
-9.4456850602
 10
267.8754774337
 20
-7.1604115128
 10
269.9494408723
 20
-4.9812190937
 10
272.0689492491
 20
-2.9153368771
 10
274.2269594305
 20
-0.9696384066
 10
276.4163044767
 20
0.8494210408
 10
278.6297114222
 20
2.5357934255
 10
280.8598272882
 20
4.0838803395
 10
283.0992442721
 20
5.4885384216
 10
285.3405227968
 20
6.7451017893
 10
287.5762176872
 20
7.8493941088
 10
289.7989022077
 20
8.7977485545
 10
292.0011929219
 20
9.587016077
 10
294.1757740588
 20
10.2145703437
 10
296.3154213852
 20
10.6783336873
 10
298.4130278887
 20
10.9767584723
 10
300.4616255099
 20
11.1088578915
 10
302.45440885
 20
11.0741922754
 10
304.3847582194
 20
10.8728763146
 10
306.2462607117
 20
10.5055760159
 10
308.032731277
 20
9.9735178258
 10
309.7382377463
 20
9.278463533
 10
311.3571166369
 20
8.4227254762
 10
312.8839836888
 20
7.4091422079
 10
314.3137733777
 20
6.2410860962
 10
315.6417310122
 20
4.9224344268
 10
316.8634496125
 20
3.4575663586
 10
317.9748672761
 20
1.8513507563
 10
318.9722935195
 20
0.1091218528
 10
319.8524145468
 20
-1.7633329184
 10
320.6123064204
 20
-3.7597926963
 10
321.2494455977
 20
-5.8736267684
 10
321.7617168338
 20
-8.0978113008
 10
322.1474158154
 20
-10.4249589971
 10
322.405262332
 20
-12.8473388714
 10
322.5344002759
 20
-15.3569045756
 10
322.5344002759
 20
-17.9453191148
 10
322.405262332
 20
-20.6039843154
 10
322.1474158154
 20
-23.324067441
 10
321.7617168338
 20
-26.0965337026
 10
321.2494455977
 20
-28.9121740146
 10
320.6123064204
 20
-31.7616333225
 10
319.8524145468
 20
-34.6354455828
 10
318.9722935195
 20
-37.5240664624
 10
317.9748672761
 20
-40.417899194
 10
316.8634496125
 20
-43.3073303167
 10
315.6417310122
 20
-46.182764656
 10
314.3137733777
 20
-49.0346435746
 10
312.8839836888
 20
-51.8534997229
 10
311.3571166369
 20
-54.6299661652
 10
309.7382377463
 20
-57.3548220038
 10
308.032731277
 20
-60.0190121518
 10
306.2462607117
 20
-62.6136853526
 10
304.3847582194
 20
-65.130230681
 10
302.45440885
 20
-67.5602805838
 10
300.4616255099
 20
-69.8957648699
 10
298.4130278887
 20
-72.1289259183
 10
296.3154213852
 20
-74.2523460518
 10
294.1757740588
 20
-76.2589669276
 10
292.0011929219
 20
-78.1421305995
 10
289.7989022077
 20
-79.8955738125
 10
287.5762176872
 20
-81.5134762898
 10
285.3405227968
 20
-82.9904623467
 10
283.0992442721
 20
-84.3216240823
 10
280.8598272882
 20
-85.5025418144
 10
278.6297114222
 20
-86.5292918723
 10
276.4163044767
 20
-87.3984647505
 10
274.2269594305
 20
-88.1071692885
 10
272.0689492491
 20
-88.6530563386
 10
269.9494408723
 20
-89.0343064052
 10
267.8754774337
 20
-89.249661203
 10
265.8539486259
 20
-89.2983951363
 10
263.8915676516
 20
-89.180355982
 10
261.9948541015
 20
-88.8959291461
 10
260.1701089294
 20
-88.4460642776
 10
258.4233933789
 20
-87.8322539733
 10
256.7605105444
 20
-87.0565352975
 10
255.186984297
 20
-86.1214867376
 10
253.7080434802
 20
-85.0302129938
 10
252.3285955677
 20
-83.7863419345
 10
251.0532292976
 20
-82.3940033039
 10
249.8861751598
 20
-80.8578241552
 10
248.8313159327
 20
-79.1829060377
 10
247.892152439
 20
-77.3748128264
 10
247.0718035454
 20
-75.4395524709
 10
246.3729982604
 20
-73.3835526596
 10
245.7980546606
 20
-71.2136418063
 10
245.3488825251
 20
-68.9370300388
 10
245.0269754329
 20
-66.5612799205
 10
244.8334028602
 20
-64.0942823049
 10
244.7688075465
 20
-61.5442329509
  0
LWPOLYLINE
  5
E3
330
1F
100
AcDbEntity
  8
0
  6
Continuous
 62
     7
370
    25
100
AcDbPolyline
 90
      100
 70
   128
 43
0.0
 10
251.8398738832
 20
-57.4621932434
 10
251.9039397272
 20
-55.0947389198
 10
252.0958712069
 20
-52.6628534478
 10
252.4149017767
 20
-50.1763252439
 10
252.8597406893
 20
-47.6451708139
 10
253.428601972
 20
-45.0795782919
 10
254.11919389
 20
-42.4898798721
 10
254.9287347511
 20
-39.8865035212
 10
255.853963443
 20
-37.2799319141
 10
256.8911578722
 20
-34.6806606103
 10
258.0361375981
 20
-32.0991577498
 10
259.2842954433
 20
-29.5458153862
 10
260.6306053962
 20
-27.0309160269
 10
262.0696436842
 20
-24.564587008
 10
263.5956177497
 20
-22.1567609521
 10
265.2023820555
 20
-19.8171286217
 10
266.8834683773
 20
-17.5551153474
 10
268.6321068777
 20
-15.3798247557
 10
270.4412550817
 20
-13.3000189996
 10
272.3036308041
 20
-11.3240754155
 10
274.2117319058
 20
-9.4599446995
 10
276.1578771238
 20
-7.7151364623
 10
278.1342291198
 20
-6.0966785468
 10
280.1328303713
 20
-4.6110810994
 10
282.1456329705
 20
-3.2643345769
 10
284.1645321689
 20
-2.061853879
 10
286.1813985227
 20
-1.0084871682
 10
288.188110573
 20
-0.1084696269
 10
290.1765886783
 20
0.6345686965
 10
292.1388254313
 20
1.2176356567
 10
294.0669192858
 20
1.6383903397
 10
295.953107319
 20
1.895131558
 10
297.7897932201
 20
1.9868261752
 10
299.5695835099
 20
1.9131117639
 10
301.2853092729
 20
1.6742756913
 10
302.9300623772
 20
1.2712851539
 10
304.4972218163
 20
0.7057628404
 10
305.9804747825
 20
-0.0200161123
 10
307.3738495943
 20
-0.9031264037
 10
308.6717354524
 20
-1.9400161455
 10
309.8689087818
 20
-3.1265053436
 10
310.9605464025
 20
-4.4578208803
 10
311.9422518715
 20
-5.9285995588
 10
312.8100739216
 20
-7.5329200441
 10
313.5605169985
 20
-9.2643211157
 10
314.1905597002
 20
-11.1158328475
 10
314.6976653131
 20
-13.079998663
 10
315.0797923494
 20
-15.148908796
 10
315.3354024489
 20
-17.3142337521
 10
315.4634656481
 20
-19.567253682
 10
315.4634656481
 20
-21.8988973557
 10
315.3354024489
 20
-24.2997759081
 10
315.0797923494
 20
-26.7602220033
 10
314.6976653131
 20
-29.2703266212
 10
314.1905597002
 20
-31.8199841148
 10
313.5605169985
 20
-34.3989276662
 10
312.8100739216
 20
-36.9967718716
 10
311.9422518715
 20
-39.6030583686
 10
310.9605464025
 20
-42.2072900552
 10
309.8689087818
 20
-44.7989835609
 10
308.6717354524
 20
-47.3676996637
 10
307.3738495943
 20
-49.9030965207
 10
305.9804747825
 20
-52.3949631264
 10
304.4972218163
 20
-54.8332695017
 10
302.9300623772
 20
-57.2081955893
 10
301.2853092729
 20
-59.5101776397
 10
299.5695835099
 20
-61.7299485129
 10
297.7897932201
 20
-63.858565053
 10
295.953107319
 20
-65.8874628392
 10
294.0669192858
 20
-67.8084679694
 10
292.1388254313
 20
-69.6138430662
 10
290.1765886783
 20
-71.2963264375
 10
288.188110573
 20
-72.8491360659
 10
286.1813985227
 20
-74.2660189413
 10
284.1645321689
 20
-75.5412765565
 10
282.1456329705
 20
-76.6697672569
 10
280.1328303713
 20
-77.6469531491
 10
278.1342291198
 20
-78.4688915894
 10
276.1578771238
 20
-79.132281118
 10
274.2117319058
 20
-79.6344443214
 10
272.3036308041
 20
-79.9733602443
 10
270.4412550817
 20
-80.1476698998
 10
268.6321068777
 20
-80.1566621987
 10
266.8834683773
 20
-80.0003066453
 10
265.2023820555
 20
-79.6792343241
 10
263.5956177497
 20
-79.1947325736
 10
262.0696436842
 20
-78.5487586717
 10
260.6306053962
 20
-77.7439078945
 10
259.2842954433
 20
-76.7834249202
 10
258.0361375981
 20
-75.6711749301
 10
256.8911578722
 20
-74.4116375223
 10
255.853963443
 20
-73.0098854166
 10
254.9287347511
 20
-71.4715601189
 10
254.11919389
 20
-69.8028597511
 10
253.428601972
 20
-68.0105017879
 10
252.8597406893
 20
-66.1017025227
 10
252.4149017767
 20
-64.0841481689
 10
252.0958712069
 20
-61.9659648204
 10
251.9039397272
 20
-59.7556787181
 10
251.8398738832
 20
-57.4621932434
  0
LINE
  5
E4
330
1F
100
AcDbEntity
  8
0
  6
Continuous
 62
     7
370
    25
100
AcDbLine
 10
369.005456175
 20
-24.8552664063
 30
0.0
 11
369.1507864112
 21
-24.9400579672
 31
0.0
  0
LINE
  5
E5
330
1F
100
AcDbEntity
  8
0
  6
Continuous
 62
     7
370
    25
100
AcDbLine
 10
314.0828863561
 20
-120.1625407248
 30
0.0
 11
314.0099248929
 21
-120.1206445407
 31
0.0
  0
LINE
  5
E6
330
1F
100
AcDbEntity
  8
0
  6
Continuous
 62
     7
370
    25
100
AcDbLine
 10
372.7369076516
 20
-27.6405495899
 30
0.0
 11
372.9885612157
 21
-27.8826042068
 31
0.0
  0
LINE
  5
E7
330
1F
100
AcDbEntity
  8
0
  6
Continuous
 62
     7
370
    25
100
AcDbLine
 10
318.2879472377
 20
-121.9591327486
 30
0.0
 11
318.131940678
 21
-121.9118355693
 31
0.0
  0
LINE
  5
E8
330
1F
100
AcDbEntity
  8
0
  6
Continuous
 62
     7
370
    25
100
AcDbLine
 10
403.6491910051
 20
-56.8429182355
 30
0.0
 11
403.8048577559
 21
-56.9919850898
 31
0.0
  0
LINE
  5
E9
330
1F
100
AcDbEntity
  8
0
  6
Continuous
 62
     7
370
    25
100
AcDbLine
 10
359.1230014305
 20
-134.1508798839
 30
0.0
 11
359.0352253501
 21
-134.1249489885
 31
0.0
  0
LWPOLYLINE
  5
EA
330
1F
100
AcDbEntity
  8
0
  6
Continuous
 62
     7
370
    25
100
AcDbPolyline
 90
       51
 70
   128
 43
0.0
 10
456.7715964842
 20
-87.0682745339
 10
457.9875936498
 20
-87.8505901181
 10
459.2854795079
 20
-88.88747986
 10
460.4826528373
 20
-90.0739690581
 10
461.5742904581
 20
-91.4052845948
 10
462.555995927
 20
-92.8760632732
 10
463.4238179771
 20
-94.4803837586
 10
464.1742610541
 20
-96.2117848302
 10
464.8043037558
 20
-98.063296562
 10
465.3114093687
 20
-100.0274623775
 10
465.6935364049
 20
-102.0963725104
 10
465.9491465044
 20
-104.2616974666
 10
466.0772097036
 20
-106.5147173965
 10
466.0772097036
 20
-108.8463610701
 10
465.9491465044
 20
-111.2472396226
 10
465.6935364049
 20
-113.7076857177
 10
465.3114093687
 20
-116.2177903356
 10
464.8043037558
 20
-118.7674478292
 10
464.1742610541
 20
-121.3463913806
 10
463.4238179771
 20
-123.9442355861
 10
462.555995927
 20
-126.550522083
 10
461.5742904581
 20
-129.1547537697
 10
460.4826528373
 20
-131.7464472754
 10
459.2854795079
 20
-134.3151633781
 10
457.9875936498
 20
-136.8505602351
 10
456.594218838
 20
-139.3424268408
 10
455.1109658718
 20
-141.7807332162
 10
453.5438064328
 20
-144.1556593038
 10
451.8990533285
 20
-146.4576413542
 10
450.1833275655
 20
-148.6774122273
 10
448.4035372757
 20
-150.8060287674
 10
446.5668513746
 20
-152.8349265536
 10
444.6806633413
 20
-154.7559316838
 10
442.7525694869
 20
-156.5613067807
 10
440.7903327339
 20
-158.2437901519
 10
438.8018546286
 20
-159.7965997804
 10
436.7951425783
 20
-161.2134826558
 10
434.7782762244
 20
-162.4887402709
 10
432.759377026
 20
-163.6172309714
 10
430.7465744269
 20
-164.5944168636
 10
428.7479731754
 20
-165.4163553039
 10
426.7716211794
 20
-166.0797448325
 10
424.8254759614
 20
-166.5819080358
 10
422.9173748597
 20
-166.9208239587
 10
421.0549991373
 20
-167.0951336143
 10
419.2458509333
 20
-167.1041259132
 10
417.4972124329
 20
-166.9477703598
 10
415.816126111
 20
-166.6266980386
 10
414.2093618053
 20
-166.1421962881
 10
412.6833877397
 20
-165.4962223862
 10
411.775252229
 20
-165.0126728899
  0
LWPOLYLINE
  5
EB
330
1F
100
AcDbEntity
  8
0
  6
Continuous
 62
     1
370
    25
100
AcDbPolyline
 90
       57
 70
   128
 43
0.0
 10
369.1507864112
 20
-24.9400579672
 10
369.2051268698
 20
-24.9722199999
 10
370.7319939217
 20
-25.9858032681
 10
372.1617836106
 20
-27.1538593799
 10
373.4897412451
 20
-28.4725110493
 10
374.7114598454
 20
-29.9373791174
 10
375.822877509
 20
-31.5435947198
 10
376.8203037525
 20
-33.2858236233
 10
377.7004247798
 20
-35.1582783944
 10
378.4603166534
 20
-37.1547381724
 10
379.0974558306
 20
-39.2685722445
 10
379.6097270667
 20
-41.4927567769
 10
379.9954260483
 20
-43.8199044731
 10
380.253272565
 20
-46.2422843474
 10
380.3824105088
 20
-48.7518500517
 10
380.3824105088
 20
-51.3402645909
 10
380.253272565
 20
-53.9989297914
 10
379.9954260483
 20
-56.7190129171
 10
379.6097270667
 20
-59.4914791786
 10
379.0974558306
 20
-62.3071194907
 10
378.4603166534
 20
-65.1565787986
 10
377.7004247798
 20
-68.0303910589
 10
376.8203037525
 20
-70.9190119384
 10
375.822877509
 20
-73.81284467
 10
374.7114598454
 20
-76.7022757927
 10
373.4897412451
 20
-79.5777101321
 10
372.1617836106
 20
-82.4295890506
 10
370.7319939217
 20
-85.2484451989
 10
369.2051268698
 20
-88.0249116412
 10
367.5862479793
 20
-90.7497674798
 10
365.88074151
 20
-93.4139576278
 10
364.0942709447
 20
-96.0086308286
 10
362.2327684523
 20
-98.5251761571
 10
360.3024190829
 20
-100.9552260598
 10
358.3096357429
 20
-103.290710346
 10
356.2610381216
 20
-105.5238713943
 10
354.1634316181
 20
-107.6472915279
 10
352.0237842917
 20
-109.6539124037
 10
349.8492031548
 20
-111.5370760756
 10
347.6469124406
 20
-113.2905192885
 10
345.4242279201
 20
-114.9084217659
 10
343.1885330297
 20
-116.3854078228
 10
340.9472545051
 20
-117.7165695583
 10
338.7078375211
 20
-118.8974872904
 10
336.4777216551
 20
-119.9242373484
 10
334.2643147096
 20
-120.7934102266
 10
332.0749696634
 20
-121.5021147646
 10
329.916959482
 20
-122.0480018147
 10
327.7974511052
 20
-122.4292518813
 10
325.7234876666
 20
-122.644606679
 10
323.7019588588
 20
-122.6933406123
 10
321.7395778845
 20
-122.5753014581
 10
319.8428643344
 20
-122.2908746222
 10
318.0181191623
 20
-121.8410097537
 10
316.2714036119
 20
-121.2271994494
 10
314.6085207773
 20
-120.4514807735
 10
314.0828863561
 20
-120.1625407248
  0
LWPOLYLINE
  5
EC
330
1F
100
AcDbEntity
  8
0
  6
Continuous
 62
     1
370
    25
100
AcDbPolyline
 90
       52
 70
   128
 43
0.0
 10
372.9885612157
 20
-27.8826042068
 10
373.7358854259
 20
-28.65548866
 10
374.9568032361
 20
-30.1193969489
 10
376.0674938665
 20
-31.7245615233
 10
377.0642668338
 20
-33.4656511921
 10
377.9438136103
 20
-35.3368800432
 10
378.7032076242
 20
-37.3320348201
 10
379.3399306014
 20
-39.4444840502
 10
379.8518672968
 20
-41.6672130252
 10
380.2373133974
 20
-43.992838251
 10
380.4949913266
 20
-46.4136333049
 10
380.6240449768
 20
-48.9215568766
 10
380.6240449768
 20
-51.5082776749
 10
380.4949913266
 20
-54.1652034195
 10
380.2373133974
 20
-56.8835070778
 10
379.8518672968
 20
-59.6541588986
 10
379.3399306014
 20
-62.467957401
 10
378.7032076242
 20
-65.3155513325
 10
377.9438136103
 20
-68.1874837752
 10
377.0642668338
 20
-71.0742157188
 10
376.0674938665
 20
-73.9661549591
 10
374.9568032361
 20
-76.8536956393
 10
373.7358854259
 20
-79.7272456267
 10
372.4087944359
 20
-82.5772614925
 10
370.9799425144
 20
-85.3942713249
 10
369.454073816
 20
-88.1689203546
 10
367.8362564992
 20
-90.8919922468
 10
366.1318642872
 20
-93.5544410394
 10
364.3465606628
 20
-96.1474185174
 10
362.4862777948
 20
-98.6623137558
 10
360.5571915138
 20
-101.090776691
 10
358.5657120919
 20
-103.4247325692
 10
356.5184552672
 20
-105.6564321336
 10
354.4222211705
 20
-107.7784607489
 10
352.2839739097
 20
-109.7837714785
 10
350.1108152289
 20
-111.6657002921
 10
347.9099660687
 20
-113.417998003
 10
345.6887356145
 20
-115.0348420524
 10
343.4545033514
 20
-116.5108590366
 10
341.2146913231
 20
-117.8411528889
 10
338.9767396829
 20
-119.0212977004
 10
336.7480828223
 20
-120.0473758362
 10
334.5361243455
 20
-120.9159802142
 10
332.3482116336
 20
-121.6242198636
 10
330.1916133716
 20
-122.1697481076
 10
328.0734918895
 20
-122.5507511539
 10
326.0008863697
 20
-122.7659638726
 10
323.9806786022
 20
-122.8146682718
 10
322.0195817897
 20
-122.6967060447
 10
320.1241102545
 20
-122.4124656388
 10
318.3005596821
 20
-121.9628936606
 10
318.2879472377
 20
-121.9591327486
  0
LWPOLYLINE
  5
ED
330
1F
100
AcDbEntity
  8
0
  6
Continuous
 62
     1
370
    25
100
AcDbPolyline
 90
       47
 70
   128
 43
0.0
 10
403.8048577559
 20
-56.9919850898
 10
404.5098559934
 20
-57.7206994077
 10
405.6023655271
 20
-59.0530781533
 10
406.5848559811
 20
-60.525034102
 10
407.45337082
 20
-62.1306367928
 10
408.2044144896
 20
-63.8634234841
 10
408.8349629535
 20
-65.7164143637
 10
409.3424742298
 20
-67.6821513336
 10
409.7249068307
 20
-69.7527162625
 10
409.980722396
 20
-71.9197716712
 10
410.108885694
 20
-74.1745950482
 10
410.108885694
 20
-76.5081033769
 10
409.980722396
 20
-78.9109009481
 10
409.7249068307
 20
-81.3733147217
 10
409.3424742298
 20
-83.885426933
 10
408.8349629535
 20
-86.43712395
 10
408.2044144896
 20
-89.0181305897
 10
407.45337082
 20
-91.6180538444
 10
406.5848559811
 20
-94.2264224237
 10
405.6023655271
 20
-96.832737705
 10
404.5098559934
 20
-99.4265011089
 10
403.3117264574
 20
-101.9972718927
 10
402.0128027331
 20
-104.5346960463
 10
400.6183110299
 20
-107.0285580019
 10
399.1338726836
 20
-109.4688140929
 10
397.5654606928
 20
-111.8456374178
 10
395.9193918166
 20
-114.1494619463
 10
394.2022936469
 20
-116.3710076111
 10
392.421080901
 20
-118.5013274546
 10
390.5829251285
 20
-120.5318464098
 10
388.6952290283
 20
-122.454388294
 10
386.7655928626
 20
-124.2612073651
 10
384.8017874566
 20
-125.9450343271
 10
382.8117192956
 20
-127.4990873533
 10
380.8034022077
 20
-128.9171036431
 10
378.7849229549
 20
-130.1933805787
 10
376.7644092934
 20
-131.3227759121
 10
374.7499968822
 20
-132.3007390365
 10
372.7497973432
 20
-133.1233385493
 10
370.7718648404
 20
-133.7872572118
 10
368.8241634818
 20
-134.2898198924
 10
366.9145352153
 20
-134.6290090584
 10
365.0506711823
 20
-134.8034569785
 10
363.2400754975
 20
-134.8124575067
 10
361.4900395657
 20
-134.6559778667
 10
359.8076084959
 20
-134.3346476224
 10
359.1230014305
 20
-134.1508798839
  0
LWPOLYLINE
  5
EE
330
1F
100
AcDbEntity
  8
0
  6
Continuous
 62
     1
370
    25
100
AcDbPolyline
 90
       49
 70
   128
 43
0.0
 10
403.0993010725
 20
-56.3234431766
 10
403.5587939175
 20
-56.7171490334
 10
404.755967247
 20
-57.9036382315
 10
405.8476048677
 20
-59.2349537682
 10
406.8293103367
 20
-60.7057324467
 10
407.6971323867
 20
-62.310052932
 10
408.4475754637
 20
-64.0414540036
 10
409.0776181654
 20
-65.8929657354
 10
409.5847237783
 20
-67.8571315509
 10
409.9668508145
 20
-69.9260416839
 10
410.222460914
 20
-72.09136664
 10
410.3505241132
 20
-74.3443865699
 10
410.3505241132
 20
-76.6760302435
 10
410.222460914
 20
-79.076908796
 10
409.9668508145
 20
-81.5373548912
 10
409.5847237783
 20
-84.0474595091
 10
409.0776181654
 20
-86.5971170027
 10
408.4475754637
 20
-89.176060554
 10
407.6971323867
 20
-91.7739047595
 10
406.8293103367
 20
-94.3801912565
 10
405.8476048677
 20
-96.9844229431
 10
404.755967247
 20
-99.5761164488
 10
403.5587939175
 20
-102.1448325516
 10
402.2609080594
 20
-104.6802294086
 10
400.8675332477
 20
-107.1720960143
 10
399.3842802814
 20
-109.6104023896
 10
397.8171208424
 20
-111.9853284772
 10
396.1723677381
 20
-114.2873105276
 10
394.4566419751
 20
-116.5070814007
 10
392.6768516853
 20
-118.6356979409
 10
390.8401657842
 20
-120.6645957271
 10
388.953977751
 20
-122.5856008573
 10
387.0258838965
 20
-124.3909759541
 10
385.0636471435
 20
-126.0734593253
 10
383.0751690382
 20
-127.6262689538
 10
381.0684569879
 20
-129.0431518292
 10
379.0515906341
 20
-130.3184094443
 10
377.0326914356
 20
-131.4469001448
 10
375.0198888365
 20
-132.424086037
 10
373.021287585
 20
-133.2460244773
 10
371.044935589
 20
-133.9094140059
 10
369.098790371
 20
-134.4115772093
 10
367.1906892693
 20
-134.7504931322
 10
365.3283135469
 20
-134.9248027877
 10
363.5191653429
 20
-134.9337950866
 10
361.7705268425
 20
-134.7774395332
 10
360.0894405207
 20
-134.456367212
 10
358.4826762149
 20
-133.9718654615
 10
358.3103812153
 20
-133.9085354356
  0
ENDSEC
  0
SECTION
  2
OBJECTS
  0
DICTIONARY
  5
C
330
0
100
AcDbDictionary
281
     1
  3
ACAD_GROUP
350
D
  3
ACAD_LAYOUT
350
1A
  3
ACAD_MLINESTYLE
350
17
  3
ACAD_PLOTSETTINGS
350
19
  3
ACAD_PLOTSTYLENAME
350
E
  3
ACAD_SCALELIST
350
47
  0
DICTIONARY
  5
D
102
{ACAD_REACTORS
330
C
102
}
330
C
100
AcDbDictionary
281
     1
  0
DICTIONARY
  5
1A
102
{ACAD_REACTORS
330
C
102
}
330
C
100
AcDbDictionary
281
     1
  3
Layout1
350
1E
  3
Layout2
350
26
  3
Model
350
22
  0
DICTIONARY
  5
17
102
{ACAD_REACTORS
330
C
102
}
330
C
100
AcDbDictionary
281
     1
  3
Standard
350
18
  0
DICTIONARY
  5
19
102
{ACAD_REACTORS
330
C
102
}
330
C
100
AcDbDictionary
281
     1
  0
ACDBDICTIONARYWDFLT
  5
E
102
{ACAD_REACTORS
330
C
102
}
330
C
100
AcDbDictionary
281
     1
  3
Normal
350
F
100
AcDbDictionaryWithDefault
340
F
  0
DICTIONARY
  5
47
102
{ACAD_REACTORS
330
C
102
}
330
C
100
AcDbDictionary
281
     1
  3
A0
350
48
  3
A1
350
49
  3
A2
350
4A
  3
A3
350
4B
  3
A4
350
4C
  3
A5
350
4D
  3
A6
350
4E
  3
A7
350
4F
  3
A8
350
50
  3
A9
350
51
  3
B0
350
52
  3
B1
350
53
  3
B2
350
54
  3
B3
350
55
  3
B4
350
56
  3
B5
350
57
  3
B6
350
58
  3
B7
350
59
  3
B8
350
5A
  3
B9
350
5B
  3
C0
350
5C
  3
C1
350
5D
  3
C2
350
5E
  3
C3
350
5F
  3
C4
350
60
  3
C5
350
61
  3
C6
350
62
  3
C7
350
63
  3
C8
350
64
  3
C9
350
65
  3
D0
350
66
  3
D1
350
67
  3
D2
350
68
  0
LAYOUT
  5
1E
102
{ACAD_REACTORS
330
1A
102
}
330
1A
100
AcDbPlotSettings
  1

  2
none_device
  4

  6

 40
0.0
 41
0.0
 42
0.0
 43
0.0
 44
0.0
 45
0.0
 46
0.0
 47
0.0
 48
0.0
 49
0.0
140
0.0
141
0.0
142
1.0
143
1.0
 70
   688
 72
     1
 73
     0
 74
     5
  7

 75
    16
147
1.0
148
0.0
149
0.0
100
AcDbLayout
  1
Layout1
 70
     1
 71
     1
 10
0.0
 20
0.0
 11
420.0
 21
297.0
 12
0.0
 22
0.0
 32
0.0
 14
1.0000000000E+20
 24
1.0000000000E+20
 34
1.0000000000E+20
 15
-1.0000000000E+20
 25
-1.0000000000E+20
 35
-1.0000000000E+20
146
0.0
 13
0.0
 23
0.0
 33
0.0
 16
1.0
 26
0.0
 36
0.0
 17
0.0
 27
1.0
 37
0.0
 76
     0
330
1B
  0
LAYOUT
  5
26
102
{ACAD_REACTORS
330
1A
102
}
330
1A
100
AcDbPlotSettings
  1

  2
none_device
  4

  6

 40
0.0
 41
0.0
 42
0.0
 43
0.0
 44
0.0
 45
0.0
 46
0.0
 47
0.0
 48
0.0
 49
0.0
140
0.0
141
0.0
142
1.0
143
1.0
 70
   688
 72
     1
 73
     0
 74
     5
  7

 75
    16
147
1.0
148
0.0
149
0.0
100
AcDbLayout
  1
Layout2
 70
     1
 71
     2
 10
0.0
 20
0.0
 11
0.0
 21
0.0
 12
0.0
 22
0.0
 32
0.0
 14
0.0
 24
0.0
 34
0.0
 15
0.0
 25
0.0
 35
0.0
146
0.0
 13
0.0
 23
0.0
 33
0.0
 16
1.0
 26
0.0
 36
0.0
 17
0.0
 27
1.0
 37
0.0
 76
     0
330
23
  0
LAYOUT
  5
22
102
{ACAD_REACTORS
330
1A
102
}
330
1A
100
AcDbPlotSettings
  1

  2
none_device
  4
Letter_(8.50_x_11.00_Inches)
  6

 40
6.35
 41
6.35
 42
6.35000508
 43
6.35000508
 44
215.9
 45
279.4
 46
0.0
 47
0.0
 48
0.0
 49
0.0
140
0.0
141
0.0
142
1.0
143
1.0
 70
  1712
 72
     1
 73
     0
 74
     0
  7

 75
     0
147
1.0
148
0.0
149
0.0
100
AcDbLayout
  1
Model
 70
     1
 71
     0
 10
0.0
 20
0.0
 11
279.4
 21
215.9
 12
0.0
 22
0.0
 32
0.0
 14
0.0
 24
0.0
 34
0.0
 15
279.4
 25
215.9
 35
0.0
146
0.0
 13
0.0
 23
0.0
 33
0.0
 16
1.0
 26
0.0
 36
0.0
 17
0.0
 27
1.0
 37
0.0
 76
     0
330
1F
331
29
  0
MLINESTYLE
  5
18
102
{ACAD_REACTORS
330
17
102
}
330
17
100
AcDbMlineStyle
  2
Standard
 70
     0
  3

 62
   256
 51
90.0
 52
90.0
 71
     2
 49
0.5
 62
   256
  6
BYLAYER
 49
-0.5
 62
   256
  6
BYLAYER
  0
ACDBPLACEHOLDER
  5
F
102
{ACAD_REACTORS
330
E
102
}
330
E
  0
SCALE
  5
48
102
{ACAD_REACTORS
330
47
102
}
330
47
100
AcDbScale
 70
     0
300
1:1
140
1.0
141
1.0
290
     1
  0
SCALE
  5
49
102
{ACAD_REACTORS
330
47
102
}
330
47
100
AcDbScale
 70
     0
300
1:2
140
1.0
141
2.0
290
     0
  0
SCALE
  5
4A
102
{ACAD_REACTORS
330
47
102
}
330
47
100
AcDbScale
 70
     0
300
1:4
140
1.0
141
4.0
290
     0
  0
SCALE
  5
4B
102
{ACAD_REACTORS
330
47
102
}
330
47
100
AcDbScale
 70
     0
300
1:5
140
1.0
141
5.0
290
     0
  0
SCALE
  5
4C
102
{ACAD_REACTORS
330
47
102
}
330
47
100
AcDbScale
 70
     0
300
1:8
140
1.0
141
8.0
290
     0
  0
SCALE
  5
4D
102
{ACAD_REACTORS
330
47
102
}
330
47
100
AcDbScale
 70
     0
300
1:10
140
1.0
141
10.0
290
     0
  0
SCALE
  5
4E
102
{ACAD_REACTORS
330
47
102
}
330
47
100
AcDbScale
 70
     0
300
1:16
140
1.0
141
16.0
290
     0
  0
SCALE
  5
4F
102
{ACAD_REACTORS
330
47
102
}
330
47
100
AcDbScale
 70
     0
300
1:20
140
1.0
141
20.0
290
     0
  0
SCALE
  5
50
102
{ACAD_REACTORS
330
47
102
}
330
47
100
AcDbScale
 70
     0
300
1:30
140
1.0
141
30.0
290
     0
  0
SCALE
  5
51
102
{ACAD_REACTORS
330
47
102
}
330
47
100
AcDbScale
 70
     0
300
1:40
140
1.0
141
40.0
290
     0
  0
SCALE
  5
52
102
{ACAD_REACTORS
330
47
102
}
330
47
100
AcDbScale
 70
     0
300
1:50
140
1.0
141
50.0
290
     0
  0
SCALE
  5
53
102
{ACAD_REACTORS
330
47
102
}
330
47
100
AcDbScale
 70
     0
300
1:100
140
1.0
141
100.0
290
     0
  0
SCALE
  5
54
102
{ACAD_REACTORS
330
47
102
}
330
47
100
AcDbScale
 70
     0
300
2:1
140
2.0
141
1.0
290
     0
  0
SCALE
  5
55
102
{ACAD_REACTORS
330
47
102
}
330
47
100
AcDbScale
 70
     0
300
4:1
140
4.0
141
1.0
290
     0
  0
SCALE
  5
56
102
{ACAD_REACTORS
330
47
102
}
330
47
100
AcDbScale
 70
     0
300
8:1
140
8.0
141
1.0
290
     0
  0
SCALE
  5
57
102
{ACAD_REACTORS
330
47
102
}
330
47
100
AcDbScale
 70
     0
300
10:1
140
10.0
141
1.0
290
     0
  0
SCALE
  5
58
102
{ACAD_REACTORS
330
47
102
}
330
47
100
AcDbScale
 70
     0
300
100:1
140
100.0
141
1.0
290
     0
  0
SCALE
  5
59
102
{ACAD_REACTORS
330
47
102
}
330
47
100
AcDbScale
 70
     0
300
1/128" = 1'-0"
140
0.0078125
141
12.0
290
     0
  0
SCALE
  5
5A
102
{ACAD_REACTORS
330
47
102
}
330
47
100
AcDbScale
 70
     0
300
1/64" = 1'-0"
140
0.015625
141
12.0
290
     0
  0
SCALE
  5
5B
102
{ACAD_REACTORS
330
47
102
}
330
47
100
AcDbScale
 70
     0
300
1/32" = 1'-0"
140
0.03125
141
12.0
290
     0
  0
SCALE
  5
5C
102
{ACAD_REACTORS
330
47
102
}
330
47
100
AcDbScale
 70
     0
300
1/16" = 1'-0"
140
0.0625
141
12.0
290
     0
  0
SCALE
  5
5D
102
{ACAD_REACTORS
330
47
102
}
330
47
100
AcDbScale
 70
     0
300
3/32" = 1'-0"
140
0.09375
141
12.0
290
     0
  0
SCALE
  5
5E
102
{ACAD_REACTORS
330
47
102
}
330
47
100
AcDbScale
 70
     0
300
1/8" = 1'-0"
140
0.125
141
12.0
290
     0
  0
SCALE
  5
5F
102
{ACAD_REACTORS
330
47
102
}
330
47
100
AcDbScale
 70
     0
300
3/16" = 1'-0"
140
0.1875
141
12.0
290
     0
  0
SCALE
  5
60
102
{ACAD_REACTORS
330
47
102
}
330
47
100
AcDbScale
 70
     0
300
1/4" = 1'-0"
140
0.25
141
12.0
290
     0
  0
SCALE
  5
61
102
{ACAD_REACTORS
330
47
102
}
330
47
100
AcDbScale
 70
     0
300
3/8" = 1'-0"
140
0.375
141
12.0
290
     0
  0
SCALE
  5
62
102
{ACAD_REACTORS
330
47
102
}
330
47
100
AcDbScale
 70
     0
300
1/2" = 1'-0"
140
0.5
141
12.0
290
     0
  0
SCALE
  5
63
102
{ACAD_REACTORS
330
47
102
}
330
47
100
AcDbScale
 70
     0
300
3/4" = 1'-0"
140
0.75
141
12.0
290
     0
  0
SCALE
  5
64
102
{ACAD_REACTORS
330
47
102
}
330
47
100
AcDbScale
 70
     0
300
1" = 1'-0"
140
1.0
141
12.0
290
     0
  0
SCALE
  5
65
102
{ACAD_REACTORS
330
47
102
}
330
47
100
AcDbScale
 70
     0
300
1-1/2" = 1'-0"
140
1.5
141
12.0
290
     0
  0
SCALE
  5
66
102
{ACAD_REACTORS
330
47
102
}
330
47
100
AcDbScale
 70
     0
300
3" = 1'-0"
140
3.0
141
12.0
290
     0
  0
SCALE
  5
67
102
{ACAD_REACTORS
330
47
102
}
330
47
100
AcDbScale
 70
     0
300
6" = 1'-0"
140
6.0
141
12.0
290
     0
  0
SCALE
  5
68
102
{ACAD_REACTORS
330
47
102
}
330
47
100
AcDbScale
 70
     0
300
1'-0" = 1'-0"
140
12.0
141
12.0
290
     0
  0
ENDSEC
  0
EOF
